ISO-10303-21;
HEADER;
FILE_DESCRIPTION((''),'2;1');
FILE_NAME('158513_SW','2011-10-06T',('banengservice'),('BANNER ENGINEERING'),
'PRO/ENGINEER BY PARAMETRIC TECHNOLOGY CORPORATION, 2009141',
'PRO/ENGINEER BY PARAMETRIC TECHNOLOGY CORPORATION, 2009141','');
FILE_SCHEMA(('CONFIG_CONTROL_DESIGN'));
ENDSEC;
DATA;
#1=CARTESIAN_POINT('',(0.E0,0.E0,0.E0));
#2=DIRECTION('',(-1.E0,0.E0,0.E0));
#3=DIRECTION('',(0.E0,1.E0,0.E0));
#4=AXIS2_PLACEMENT_3D('',#1,#2,#3);
#6=CARTESIAN_POINT('',(0.E0,0.E0,0.E0));
#7=DIRECTION('',(1.E0,0.E0,0.E0));
#8=DIRECTION('',(0.E0,1.E0,0.E0));
#9=AXIS2_PLACEMENT_3D('',#6,#7,#8);
#11=CARTESIAN_POINT('',(1.102362204724E-1,0.E0,0.E0));
#12=DIRECTION('',(-1.E0,0.E0,0.E0));
#13=DIRECTION('',(0.E0,1.E0,0.E0));
#14=AXIS2_PLACEMENT_3D('',#11,#12,#13);
#16=DIRECTION('',(-9.417419115948E-1,-3.363363969982E-1,0.E0));
#17=VECTOR('',#16,1.170556594277E-1);
#18=CARTESIAN_POINT('',(1.102362204724E-1,1.003937007874E0,0.E0));
#19=LINE('',#18,#17);
#20=CARTESIAN_POINT('',(1.102362204724E-1,0.E0,0.E0));
#21=DIRECTION('',(1.E0,0.E0,0.E0));
#22=DIRECTION('',(0.E0,1.E0,0.E0));
#23=AXIS2_PLACEMENT_3D('',#20,#21,#22);
#25=DIRECTION('',(-9.417419115948E-1,3.363363969982E-1,0.E0));
#26=VECTOR('',#25,1.170556594277E-1);
#27=CARTESIAN_POINT('',(1.102362204724E-1,-1.003937007874E0,0.E0));
#28=LINE('',#27,#26);
#29=DIRECTION('',(-1.E0,0.E0,0.E0));
#30=VECTOR('',#29,6.805977088119E-2);
#31=CARTESIAN_POINT('',(1.782959913536E-1,1.003937007874E0,0.E0));
#32=LINE('',#31,#30);
#33=CARTESIAN_POINT('',(1.782959913536E-1,0.E0,0.E0));
#34=DIRECTION('',(1.E0,0.E0,0.E0));
#35=DIRECTION('',(0.E0,1.E0,0.E0));
#36=AXIS2_PLACEMENT_3D('',#33,#34,#35);
#38=DIRECTION('',(-1.E0,0.E0,0.E0));
#39=VECTOR('',#38,6.805977088119E-2);
#40=CARTESIAN_POINT('',(1.782959913536E-1,-1.003937007874E0,0.E0));
#41=LINE('',#40,#39);
#42=CARTESIAN_POINT('',(1.782959913536E-1,0.E0,0.E0));
#43=DIRECTION('',(-1.E0,0.E0,0.E0));
#44=DIRECTION('',(0.E0,1.E0,0.E0));
#45=AXIS2_PLACEMENT_3D('',#42,#43,#44);
#47=CARTESIAN_POINT('',(4.015748031496E-1,0.E0,0.E0));
#48=DIRECTION('',(-1.E0,0.E0,0.E0));
#49=DIRECTION('',(0.E0,1.E0,0.E0));
#50=AXIS2_PLACEMENT_3D('',#47,#48,#49);
#52=DIRECTION('',(-9.848077530122E-1,1.736481776669E-1,0.E0));
#53=VECTOR('',#52,2.267232473679E-1);
#54=CARTESIAN_POINT('',(4.015748031496E-1,9.645669291339E-1,0.E0));
#55=LINE('',#54,#53);
#56=CARTESIAN_POINT('',(4.015748031496E-1,0.E0,0.E0));
#57=DIRECTION('',(1.E0,0.E0,0.E0));
#58=DIRECTION('',(0.E0,1.E0,0.E0));
#59=AXIS2_PLACEMENT_3D('',#56,#57,#58);
#61=DIRECTION('',(-9.848077530122E-1,-1.736481776669E-1,0.E0));
#62=VECTOR('',#61,2.267232473679E-1);
#63=CARTESIAN_POINT('',(4.015748031496E-1,-9.645669291339E-1,0.E0));
#64=LINE('',#63,#62);
#65=CARTESIAN_POINT('',(4.015748031496E-1,0.E0,0.E0));
#66=DIRECTION('',(-1.E0,0.E0,0.E0));
#67=DIRECTION('',(0.E0,1.E0,0.E0));
#68=AXIS2_PLACEMENT_3D('',#65,#66,#67);
#70=CARTESIAN_POINT('',(4.015748031496E-1,0.E0,0.E0));
#71=DIRECTION('',(1.E0,0.E0,0.E0));
#72=DIRECTION('',(0.E0,1.E0,0.E0));
#73=AXIS2_PLACEMENT_3D('',#70,#71,#72);
#75=CARTESIAN_POINT('',(2.913385826772E-1,0.E0,0.E0));
#76=DIRECTION('',(-1.E0,0.E0,0.E0));
#77=DIRECTION('',(0.E0,1.E0,0.E0));
#78=AXIS2_PLACEMENT_3D('',#75,#76,#77);
#80=DIRECTION('',(9.844275755085E-1,1.757906384837E-1,0.E0));
#81=VECTOR('',#80,1.119800208923E-1);
#82=CARTESIAN_POINT('',(2.913385826772E-1,9.251968503937E-1,0.E0));
#83=LINE('',#82,#81);
#84=CARTESIAN_POINT('',(2.913385826772E-1,0.E0,0.E0));
#85=DIRECTION('',(1.E0,0.E0,0.E0));
#86=DIRECTION('',(0.E0,1.E0,0.E0));
#87=AXIS2_PLACEMENT_3D('',#84,#85,#86);
#89=DIRECTION('',(9.844275755085E-1,-1.757906384837E-1,0.E0));
#90=VECTOR('',#89,1.119800208923E-1);
#91=CARTESIAN_POINT('',(2.913385826772E-1,-9.251968503937E-1,0.E0));
#92=LINE('',#91,#90);
#93=CARTESIAN_POINT('',(2.913385826772E-1,0.E0,0.E0));
#94=DIRECTION('',(-1.E0,0.E0,0.E0));
#95=DIRECTION('',(0.E0,1.E0,0.E0));
#96=AXIS2_PLACEMENT_3D('',#93,#94,#95);
#98=CARTESIAN_POINT('',(2.913385826772E-1,0.E0,0.E0));
#99=DIRECTION('',(1.E0,0.E0,0.E0));
#100=DIRECTION('',(0.E0,1.E0,0.E0));
#101=AXIS2_PLACEMENT_3D('',#98,#99,#100);
#103=CARTESIAN_POINT('',(4.015748031496E-1,0.E0,0.E0));
#104=DIRECTION('',(-1.E0,0.E0,0.E0));
#105=DIRECTION('',(0.E0,1.E0,0.E0));
#106=AXIS2_PLACEMENT_3D('',#103,#104,#105);
#108=DIRECTION('',(-9.366038231653E-1,3.503901802735E-1,0.E0));
#109=VECTOR('',#108,1.176978117598E-1);
#110=CARTESIAN_POINT('',(4.015748031496E-1,1.290354330709E-1,0.E0));
#111=LINE('',#110,#109);
#112=CARTESIAN_POINT('',(4.015748031496E-1,0.E0,0.E0));
#113=DIRECTION('',(1.E0,0.E0,0.E0));
#114=DIRECTION('',(0.E0,1.E0,0.E0));
#115=AXIS2_PLACEMENT_3D('',#112,#113,#114);
#117=DIRECTION('',(-9.366038231653E-1,-3.503901802735E-1,0.E0));
#118=VECTOR('',#117,1.176978117598E-1);
#119=CARTESIAN_POINT('',(4.015748031496E-1,-1.290354330709E-1,0.E0));
#120=LINE('',#119,#118);
#121=CARTESIAN_POINT('',(4.015748031496E-1,0.E0,0.E0));
#122=DIRECTION('',(-1.E0,0.E0,0.E0));
#123=DIRECTION('',(0.E0,1.E0,0.E0));
#124=AXIS2_PLACEMENT_3D('',#121,#122,#123);
#126=CARTESIAN_POINT('',(4.015748031496E-1,0.E0,0.E0));
#127=DIRECTION('',(1.E0,0.E0,0.E0));
#128=DIRECTION('',(0.E0,1.E0,0.E0));
#129=AXIS2_PLACEMENT_3D('',#126,#127,#128);
#131=CARTESIAN_POINT('',(7.559055118110E-1,0.E0,0.E0));
#132=DIRECTION('',(-1.E0,0.E0,0.E0));
#133=DIRECTION('',(0.E0,1.E0,0.E0));
#134=AXIS2_PLACEMENT_3D('',#131,#132,#133);
#136=DIRECTION('',(-1.E0,0.E0,0.E0));
#137=VECTOR('',#136,3.543307086614E-1);
#138=CARTESIAN_POINT('',(7.559055118110E-1,9.842519685039E-2,0.E0));
#139=LINE('',#138,#137);
#140=CARTESIAN_POINT('',(7.559055118110E-1,0.E0,0.E0));
#141=DIRECTION('',(1.E0,0.E0,0.E0));
#142=DIRECTION('',(0.E0,1.E0,0.E0));
#143=AXIS2_PLACEMENT_3D('',#140,#141,#142);
#145=DIRECTION('',(-1.E0,0.E0,0.E0));
#146=VECTOR('',#145,3.543307086614E-1);
#147=CARTESIAN_POINT('',(7.559055118110E-1,-9.842519685039E-2,0.E0));
#148=LINE('',#147,#146);
#149=DIRECTION('',(1.E0,0.E0,0.E0));
#150=VECTOR('',#149,1.102362204724E-1);
#151=CARTESIAN_POINT('',(0.E0,9.251968503937E-1,0.E0));
#152=LINE('',#151,#150);
#153=CARTESIAN_POINT('',(0.E0,0.E0,0.E0));
#154=DIRECTION('',(1.E0,0.E0,0.E0));
#155=DIRECTION('',(0.E0,1.E0,0.E0));
#156=AXIS2_PLACEMENT_3D('',#153,#154,#155);
#158=DIRECTION('',(1.E0,0.E0,0.E0));
#159=VECTOR('',#158,1.102362204724E-1);
#160=CARTESIAN_POINT('',(0.E0,-9.251968503937E-1,0.E0));
#161=LINE('',#160,#159);
#162=CARTESIAN_POINT('',(0.E0,0.E0,0.E0));
#163=DIRECTION('',(-1.E0,0.E0,0.E0));
#164=DIRECTION('',(0.E0,1.E0,0.E0));
#165=AXIS2_PLACEMENT_3D('',#162,#163,#164);
#167=CARTESIAN_POINT('',(1.102362204724E-1,0.E0,0.E0));
#168=DIRECTION('',(1.E0,0.E0,0.E0));
#169=DIRECTION('',(0.E0,1.E0,0.E0));
#170=AXIS2_PLACEMENT_3D('',#167,#168,#169);
#172=CARTESIAN_POINT('',(1.102362204724E-1,0.E0,0.E0));
#173=DIRECTION('',(-1.E0,0.E0,0.E0));
#174=DIRECTION('',(0.E0,1.E0,0.E0));
#175=AXIS2_PLACEMENT_3D('',#172,#173,#174);
#177=CARTESIAN_POINT('',(1.102362204724E-1,0.E0,0.E0));
#178=DIRECTION('',(-1.E0,0.E0,0.E0));
#179=DIRECTION('',(0.E0,1.E0,0.E0));
#180=AXIS2_PLACEMENT_3D('',#177,#178,#179);
#182=DIRECTION('',(-1.E0,0.E0,0.E0));
#183=VECTOR('',#182,1.082677165354E-1);
#184=CARTESIAN_POINT('',(1.102362204724E-1,9.212598425197E-1,0.E0));
#185=LINE('',#184,#183);
#186=CARTESIAN_POINT('',(1.102362204724E-1,0.E0,0.E0));
#187=DIRECTION('',(1.E0,0.E0,0.E0));
#188=DIRECTION('',(0.E0,1.E0,0.E0));
#189=AXIS2_PLACEMENT_3D('',#186,#187,#188);
#191=DIRECTION('',(-1.E0,0.E0,0.E0));
#192=VECTOR('',#191,1.082677165354E-1);
#193=CARTESIAN_POINT('',(1.102362204724E-1,-9.212598425197E-1,0.E0));
#194=LINE('',#193,#192);
#195=CARTESIAN_POINT('',(1.968503937008E-3,0.E0,0.E0));
#196=DIRECTION('',(1.E0,0.E0,0.E0));
#197=DIRECTION('',(0.E0,1.E0,0.E0));
#198=AXIS2_PLACEMENT_3D('',#195,#196,#197);
#200=CARTESIAN_POINT('',(1.968503937008E-3,0.E0,0.E0));
#201=DIRECTION('',(-1.E0,0.E0,0.E0));
#202=DIRECTION('',(0.E0,1.E0,0.E0));
#203=AXIS2_PLACEMENT_3D('',#200,#201,#202);
#205=CARTESIAN_POINT('',(0.E0,9.251968503937E-1,0.E0));
#206=CARTESIAN_POINT('',(1.102362204724E-1,9.251968503937E-1,0.E0));
#207=VERTEX_POINT('',#205);
#208=VERTEX_POINT('',#206);
#209=CARTESIAN_POINT('',(4.015748031496E-1,1.290354330709E-1,0.E0));
#210=CARTESIAN_POINT('',(2.913385826772E-1,1.702755905512E-1,0.E0));
#211=VERTEX_POINT('',#209);
#212=VERTEX_POINT('',#210);
#213=CARTESIAN_POINT('',(2.913385826772E-1,9.251968503937E-1,0.E0));
#214=CARTESIAN_POINT('',(4.015748031496E-1,9.448818897638E-1,0.E0));
#215=VERTEX_POINT('',#213);
#216=VERTEX_POINT('',#214);
#217=CARTESIAN_POINT('',(4.015748031496E-1,9.645669291339E-1,0.E0));
#218=CARTESIAN_POINT('',(1.782959913536E-1,1.003937007874E0,0.E0));
#219=VERTEX_POINT('',#217);
#220=VERTEX_POINT('',#218);
#221=CARTESIAN_POINT('',(1.102362204724E-1,1.003937007874E0,0.E0));
#222=VERTEX_POINT('',#221);
#223=CARTESIAN_POINT('',(0.E0,9.645669291339E-1,0.E0));
#224=VERTEX_POINT('',#223);
#225=CARTESIAN_POINT('',(0.E0,-9.251968503937E-1,0.E0));
#226=CARTESIAN_POINT('',(1.102362204724E-1,-9.251968503937E-1,0.E0));
#227=VERTEX_POINT('',#225);
#228=VERTEX_POINT('',#226);
#229=CARTESIAN_POINT('',(4.015748031496E-1,-1.290354330709E-1,0.E0));
#230=CARTESIAN_POINT('',(2.913385826772E-1,-1.702755905512E-1,0.E0));
#231=VERTEX_POINT('',#229);
#232=VERTEX_POINT('',#230);
#233=CARTESIAN_POINT('',(2.913385826772E-1,-9.251968503937E-1,0.E0));
#234=CARTESIAN_POINT('',(4.015748031496E-1,-9.448818897638E-1,0.E0));
#235=VERTEX_POINT('',#233);
#236=VERTEX_POINT('',#234);
#237=CARTESIAN_POINT('',(4.015748031496E-1,-9.645669291339E-1,0.E0));
#238=CARTESIAN_POINT('',(1.782959913536E-1,-1.003937007874E0,0.E0));
#239=VERTEX_POINT('',#237);
#240=VERTEX_POINT('',#238);
#241=CARTESIAN_POINT('',(1.102362204724E-1,-1.003937007874E0,0.E0));
#242=VERTEX_POINT('',#241);
#243=CARTESIAN_POINT('',(0.E0,-9.645669291339E-1,0.E0));
#244=VERTEX_POINT('',#243);
#245=CARTESIAN_POINT('',(7.559055118110E-1,9.842519685039E-2,0.E0));
#246=CARTESIAN_POINT('',(4.015748031496E-1,9.842519685039E-2,0.E0));
#247=VERTEX_POINT('',#245);
#248=VERTEX_POINT('',#246);
#249=CARTESIAN_POINT('',(7.559055118110E-1,-9.842519685039E-2,0.E0));
#250=CARTESIAN_POINT('',(4.015748031496E-1,-9.842519685039E-2,0.E0));
#251=VERTEX_POINT('',#249);
#252=VERTEX_POINT('',#250);
#253=CARTESIAN_POINT('',(1.102362204724E-1,9.212598425197E-1,0.E0));
#254=CARTESIAN_POINT('',(1.968503937008E-3,9.212598425197E-1,0.E0));
#255=VERTEX_POINT('',#253);
#256=VERTEX_POINT('',#254);
#257=CARTESIAN_POINT('',(1.102362204724E-1,-9.212598425197E-1,0.E0));
#258=CARTESIAN_POINT('',(1.968503937008E-3,-9.212598425197E-1,0.E0));
#259=VERTEX_POINT('',#257);
#260=VERTEX_POINT('',#258);
#261=CARTESIAN_POINT('',(0.E0,0.E0,0.E0));
#262=DIRECTION('',(-1.E0,0.E0,0.E0));
#263=DIRECTION('',(0.E0,1.E0,0.E0));
#264=AXIS2_PLACEMENT_3D('',#261,#262,#263);
#265=PLANE('',#264);
#267=ORIENTED_EDGE('',*,*,#266,.F.);
#269=ORIENTED_EDGE('',*,*,#268,.T.);
#270=EDGE_LOOP('',(#267,#269));
#271=FACE_OUTER_BOUND('',#270,.F.);
#273=ORIENTED_EDGE('',*,*,#272,.F.);
#275=ORIENTED_EDGE('',*,*,#274,.T.);
#276=EDGE_LOOP('',(#273,#275));
#277=FACE_BOUND('',#276,.F.);
#278=ADVANCED_FACE('',(#271,#277),#265,.T.);
#279=CARTESIAN_POINT('',(5.511811023622E-2,0.E0,0.E0));
#280=DIRECTION('',(1.E0,0.E0,0.E0));
#281=DIRECTION('',(0.E0,-1.E0,0.E0));
#282=AXIS2_PLACEMENT_3D('',#279,#280,#281);
#283=CONICAL_SURFACE('',#282,9.842519685039E-1,1.965382405805E1);
#285=ORIENTED_EDGE('',*,*,#284,.T.);
#286=ORIENTED_EDGE('',*,*,#266,.T.);
#288=ORIENTED_EDGE('',*,*,#287,.F.);
#290=ORIENTED_EDGE('',*,*,#289,.F.);
#291=EDGE_LOOP('',(#285,#286,#288,#290));
#292=FACE_OUTER_BOUND('',#291,.F.);
#293=ADVANCED_FACE('',(#292),#283,.T.);
#294=CARTESIAN_POINT('',(5.511811023622E-2,0.E0,0.E0));
#295=DIRECTION('',(1.E0,0.E0,0.E0));
#296=DIRECTION('',(0.E0,-1.E0,0.E0));
#297=AXIS2_PLACEMENT_3D('',#294,#295,#296);
#298=CONICAL_SURFACE('',#297,9.842519685039E-1,1.965382405805E1);
#299=ORIENTED_EDGE('',*,*,#284,.F.);
#301=ORIENTED_EDGE('',*,*,#300,.T.);
#302=ORIENTED_EDGE('',*,*,#287,.T.);
#303=ORIENTED_EDGE('',*,*,#268,.F.);
#304=EDGE_LOOP('',(#299,#301,#302,#303));
#305=FACE_OUTER_BOUND('',#304,.F.);
#306=ADVANCED_FACE('',(#305),#298,.T.);
#307=CARTESIAN_POINT('',(7.937007874016E-1,0.E0,0.E0));
#308=DIRECTION('',(-1.E0,0.E0,0.E0));
#309=DIRECTION('',(0.E0,1.E0,0.E0));
#310=AXIS2_PLACEMENT_3D('',#307,#308,#309);
#311=CYLINDRICAL_SURFACE('',#310,1.003937007874E0);
#313=ORIENTED_EDGE('',*,*,#312,.F.);
#315=ORIENTED_EDGE('',*,*,#314,.T.);
#317=ORIENTED_EDGE('',*,*,#316,.T.);
#318=ORIENTED_EDGE('',*,*,#300,.F.);
#319=EDGE_LOOP('',(#313,#315,#317,#318));
#320=FACE_OUTER_BOUND('',#319,.F.);
#321=ADVANCED_FACE('',(#320),#311,.T.);
#322=CARTESIAN_POINT('',(7.937007874016E-1,0.E0,0.E0));
#323=DIRECTION('',(-1.E0,0.E0,0.E0));
#324=DIRECTION('',(0.E0,1.E0,0.E0));
#325=AXIS2_PLACEMENT_3D('',#322,#323,#324);
#326=CYLINDRICAL_SURFACE('',#325,1.003937007874E0);
#327=ORIENTED_EDGE('',*,*,#312,.T.);
#328=ORIENTED_EDGE('',*,*,#289,.T.);
#329=ORIENTED_EDGE('',*,*,#316,.F.);
#331=ORIENTED_EDGE('',*,*,#330,.F.);
#332=EDGE_LOOP('',(#327,#328,#329,#331));
#333=FACE_OUTER_BOUND('',#332,.F.);
#334=ADVANCED_FACE('',(#333),#326,.T.);
#335=CARTESIAN_POINT('',(2.899353972516E-1,0.E0,0.E0));
#336=DIRECTION('',(-1.E0,0.E0,0.E0));
#337=DIRECTION('',(0.E0,1.E0,0.E0));
#338=AXIS2_PLACEMENT_3D('',#335,#336,#337);
#339=CONICAL_SURFACE('',#338,9.842519685039E-1,1.E1);
#341=ORIENTED_EDGE('',*,*,#340,.T.);
#342=ORIENTED_EDGE('',*,*,#330,.T.);
#344=ORIENTED_EDGE('',*,*,#343,.F.);
#346=ORIENTED_EDGE('',*,*,#345,.F.);
#347=EDGE_LOOP('',(#341,#342,#344,#346));
#348=FACE_OUTER_BOUND('',#347,.F.);
#349=ADVANCED_FACE('',(#348),#339,.T.);
#350=CARTESIAN_POINT('',(2.899353972516E-1,0.E0,0.E0));
#351=DIRECTION('',(-1.E0,0.E0,0.E0));
#352=DIRECTION('',(0.E0,1.E0,0.E0));
#353=AXIS2_PLACEMENT_3D('',#350,#351,#352);
#354=CONICAL_SURFACE('',#353,9.842519685039E-1,1.E1);
#355=ORIENTED_EDGE('',*,*,#340,.F.);
#357=ORIENTED_EDGE('',*,*,#356,.T.);
#358=ORIENTED_EDGE('',*,*,#343,.T.);
#359=ORIENTED_EDGE('',*,*,#314,.F.);
#360=EDGE_LOOP('',(#355,#357,#358,#359));
#361=FACE_OUTER_BOUND('',#360,.F.);
#362=ADVANCED_FACE('',(#361),#354,.T.);
#363=CARTESIAN_POINT('',(4.015748031496E-1,0.E0,0.E0));
#364=DIRECTION('',(-1.E0,0.E0,0.E0));
#365=DIRECTION('',(0.E0,1.E0,0.E0));
#366=AXIS2_PLACEMENT_3D('',#363,#364,#365);
#367=PLANE('',#366);
#368=ORIENTED_EDGE('',*,*,#356,.F.);
#369=ORIENTED_EDGE('',*,*,#345,.T.);
#370=EDGE_LOOP('',(#368,#369));
#371=FACE_OUTER_BOUND('',#370,.F.);
#373=ORIENTED_EDGE('',*,*,#372,.F.);
#375=ORIENTED_EDGE('',*,*,#374,.T.);
#376=EDGE_LOOP('',(#373,#375));
#377=FACE_BOUND('',#376,.F.);
#378=ADVANCED_FACE('',(#371,#377),#367,.F.);
#379=CARTESIAN_POINT('',(3.464566929134E-1,0.E0,0.E0));
#380=DIRECTION('',(1.E0,0.E0,0.E0));
#381=DIRECTION('',(0.E0,-1.E0,0.E0));
#382=AXIS2_PLACEMENT_3D('',#379,#380,#381);
#383=CONICAL_SURFACE('',#382,9.350393700787E-1,1.012467165540E1);
#385=ORIENTED_EDGE('',*,*,#384,.T.);
#386=ORIENTED_EDGE('',*,*,#372,.T.);
#388=ORIENTED_EDGE('',*,*,#387,.F.);
#390=ORIENTED_EDGE('',*,*,#389,.F.);
#391=EDGE_LOOP('',(#385,#386,#388,#390));
#392=FACE_OUTER_BOUND('',#391,.F.);
#393=ADVANCED_FACE('',(#392),#383,.F.);
#394=CARTESIAN_POINT('',(3.464566929134E-1,0.E0,0.E0));
#395=DIRECTION('',(1.E0,0.E0,0.E0));
#396=DIRECTION('',(0.E0,-1.E0,0.E0));
#397=AXIS2_PLACEMENT_3D('',#394,#395,#396);
#398=CONICAL_SURFACE('',#397,9.350393700787E-1,1.012467165540E1);
#399=ORIENTED_EDGE('',*,*,#384,.F.);
#401=ORIENTED_EDGE('',*,*,#400,.T.);
#402=ORIENTED_EDGE('',*,*,#387,.T.);
#403=ORIENTED_EDGE('',*,*,#374,.F.);
#404=EDGE_LOOP('',(#399,#401,#402,#403));
#405=FACE_OUTER_BOUND('',#404,.F.);
#406=ADVANCED_FACE('',(#405),#398,.F.);
#407=CARTESIAN_POINT('',(2.913385826772E-1,0.E0,0.E0));
#408=DIRECTION('',(-1.E0,0.E0,0.E0));
#409=DIRECTION('',(0.E0,1.E0,0.E0));
#410=AXIS2_PLACEMENT_3D('',#407,#408,#409);
#411=PLANE('',#410);
#412=ORIENTED_EDGE('',*,*,#400,.F.);
#413=ORIENTED_EDGE('',*,*,#389,.T.);
#414=EDGE_LOOP('',(#412,#413));
#415=FACE_OUTER_BOUND('',#414,.F.);
#417=ORIENTED_EDGE('',*,*,#416,.F.);
#419=ORIENTED_EDGE('',*,*,#418,.T.);
#420=EDGE_LOOP('',(#417,#419));
#421=FACE_BOUND('',#420,.F.);
#422=ADVANCED_FACE('',(#415,#421),#411,.F.);
#423=CARTESIAN_POINT('',(3.464566929134E-1,0.E0,0.E0));
#424=DIRECTION('',(-1.E0,0.E0,0.E0));
#425=DIRECTION('',(0.E0,1.E0,0.E0));
#426=AXIS2_PLACEMENT_3D('',#423,#424,#425);
#427=CONICAL_SURFACE('',#426,1.496555118110E-1,2.051118213429E1);
#429=ORIENTED_EDGE('',*,*,#428,.T.);
#430=ORIENTED_EDGE('',*,*,#416,.T.);
#432=ORIENTED_EDGE('',*,*,#431,.F.);
#434=ORIENTED_EDGE('',*,*,#433,.F.);
#435=EDGE_LOOP('',(#429,#430,#432,#434));
#436=FACE_OUTER_BOUND('',#435,.F.);
#437=ADVANCED_FACE('',(#436),#427,.T.);
#438=CARTESIAN_POINT('',(3.464566929134E-1,0.E0,0.E0));
#439=DIRECTION('',(-1.E0,0.E0,0.E0));
#440=DIRECTION('',(0.E0,1.E0,0.E0));
#441=AXIS2_PLACEMENT_3D('',#438,#439,#440);
#442=CONICAL_SURFACE('',#441,1.496555118110E-1,2.051118213429E1);
#443=ORIENTED_EDGE('',*,*,#428,.F.);
#445=ORIENTED_EDGE('',*,*,#444,.T.);
#446=ORIENTED_EDGE('',*,*,#431,.T.);
#447=ORIENTED_EDGE('',*,*,#418,.F.);
#448=EDGE_LOOP('',(#443,#445,#446,#447));
#449=FACE_OUTER_BOUND('',#448,.F.);
#450=ADVANCED_FACE('',(#449),#442,.T.);
#451=CARTESIAN_POINT('',(4.015748031496E-1,0.E0,0.E0));
#452=DIRECTION('',(-1.E0,0.E0,0.E0));
#453=DIRECTION('',(0.E0,1.E0,0.E0));
#454=AXIS2_PLACEMENT_3D('',#451,#452,#453);
#455=PLANE('',#454);
#456=ORIENTED_EDGE('',*,*,#444,.F.);
#457=ORIENTED_EDGE('',*,*,#433,.T.);
#458=EDGE_LOOP('',(#456,#457));
#459=FACE_OUTER_BOUND('',#458,.F.);
#461=ORIENTED_EDGE('',*,*,#460,.F.);
#463=ORIENTED_EDGE('',*,*,#462,.T.);
#464=EDGE_LOOP('',(#461,#463));
#465=FACE_BOUND('',#464,.F.);
#466=ADVANCED_FACE('',(#459,#465),#455,.F.);
#467=CARTESIAN_POINT('',(7.937007874016E-1,0.E0,0.E0));
#468=DIRECTION('',(-1.E0,0.E0,0.E0));
#469=DIRECTION('',(0.E0,1.E0,0.E0));
#470=AXIS2_PLACEMENT_3D('',#467,#468,#469);
#471=CYLINDRICAL_SURFACE('',#470,9.842519685039E-2);
#473=ORIENTED_EDGE('',*,*,#472,.T.);
#474=ORIENTED_EDGE('',*,*,#460,.T.);
#476=ORIENTED_EDGE('',*,*,#475,.F.);
#478=ORIENTED_EDGE('',*,*,#477,.F.);
#479=EDGE_LOOP('',(#473,#474,#476,#478));
#480=FACE_OUTER_BOUND('',#479,.F.);
#481=ADVANCED_FACE('',(#480),#471,.T.);
#482=CARTESIAN_POINT('',(7.937007874016E-1,0.E0,0.E0));
#483=DIRECTION('',(-1.E0,0.E0,0.E0));
#484=DIRECTION('',(0.E0,1.E0,0.E0));
#485=AXIS2_PLACEMENT_3D('',#482,#483,#484);
#486=CYLINDRICAL_SURFACE('',#485,9.842519685039E-2);
#487=ORIENTED_EDGE('',*,*,#472,.F.);
#489=ORIENTED_EDGE('',*,*,#488,.T.);
#490=ORIENTED_EDGE('',*,*,#475,.T.);
#491=ORIENTED_EDGE('',*,*,#462,.F.);
#492=EDGE_LOOP('',(#487,#489,#490,#491));
#493=FACE_OUTER_BOUND('',#492,.F.);
#494=ADVANCED_FACE('',(#493),#486,.T.);
#495=CARTESIAN_POINT('',(7.559055118110E-1,0.E0,0.E0));
#496=DIRECTION('',(-1.E0,0.E0,0.E0));
#497=DIRECTION('',(0.E0,1.E0,0.E0));
#498=AXIS2_PLACEMENT_3D('',#495,#496,#497);
#499=PLANE('',#498);
#500=ORIENTED_EDGE('',*,*,#488,.F.);
#501=ORIENTED_EDGE('',*,*,#477,.T.);
#502=EDGE_LOOP('',(#500,#501));
#503=FACE_OUTER_BOUND('',#502,.F.);
#504=ADVANCED_FACE('',(#503),#499,.F.);
#505=CARTESIAN_POINT('',(7.937007874016E-1,0.E0,0.E0));
#506=DIRECTION('',(-1.E0,0.E0,0.E0));
#507=DIRECTION('',(0.E0,1.E0,0.E0));
#508=AXIS2_PLACEMENT_3D('',#505,#506,#507);
#509=CYLINDRICAL_SURFACE('',#508,9.251968503937E-1);
#511=ORIENTED_EDGE('',*,*,#510,.F.);
#512=ORIENTED_EDGE('',*,*,#272,.T.);
#514=ORIENTED_EDGE('',*,*,#513,.T.);
#516=ORIENTED_EDGE('',*,*,#515,.F.);
#517=EDGE_LOOP('',(#511,#512,#514,#516));
#518=FACE_OUTER_BOUND('',#517,.F.);
#519=ADVANCED_FACE('',(#518),#509,.F.);
#520=CARTESIAN_POINT('',(7.937007874016E-1,0.E0,0.E0));
#521=DIRECTION('',(-1.E0,0.E0,0.E0));
#522=DIRECTION('',(0.E0,1.E0,0.E0));
#523=AXIS2_PLACEMENT_3D('',#520,#521,#522);
#524=CYLINDRICAL_SURFACE('',#523,9.251968503937E-1);
#525=ORIENTED_EDGE('',*,*,#510,.T.);
#527=ORIENTED_EDGE('',*,*,#526,.T.);
#528=ORIENTED_EDGE('',*,*,#513,.F.);
#529=ORIENTED_EDGE('',*,*,#274,.F.);
#530=EDGE_LOOP('',(#525,#527,#528,#529));
#531=FACE_OUTER_BOUND('',#530,.F.);
#532=ADVANCED_FACE('',(#531),#524,.F.);
#533=CARTESIAN_POINT('',(1.102362204724E-1,0.E0,0.E0));
#534=DIRECTION('',(-1.E0,0.E0,0.E0));
#535=DIRECTION('',(0.E0,1.E0,0.E0));
#536=AXIS2_PLACEMENT_3D('',#533,#534,#535);
#537=PLANE('',#536);
#538=ORIENTED_EDGE('',*,*,#515,.T.);
#539=ORIENTED_EDGE('',*,*,#526,.F.);
#540=EDGE_LOOP('',(#538,#539));
#541=FACE_OUTER_BOUND('',#540,.F.);
#543=ORIENTED_EDGE('',*,*,#542,.T.);
#545=ORIENTED_EDGE('',*,*,#544,.F.);
#546=EDGE_LOOP('',(#543,#545));
#547=FACE_BOUND('',#546,.F.);
#548=ADVANCED_FACE('',(#541,#547),#537,.T.);
#549=CARTESIAN_POINT('',(7.937007874016E-1,0.E0,0.E0));
#550=DIRECTION('',(-1.E0,0.E0,0.E0));
#551=DIRECTION('',(0.E0,1.E0,0.E0));
#552=AXIS2_PLACEMENT_3D('',#549,#550,#551);
#553=CYLINDRICAL_SURFACE('',#552,9.212598425197E-1);
#555=ORIENTED_EDGE('',*,*,#554,.T.);
#557=ORIENTED_EDGE('',*,*,#556,.T.);
#559=ORIENTED_EDGE('',*,*,#558,.F.);
#560=ORIENTED_EDGE('',*,*,#542,.F.);
#561=EDGE_LOOP('',(#555,#557,#559,#560));
#562=FACE_OUTER_BOUND('',#561,.F.);
#563=ADVANCED_FACE('',(#562),#553,.T.);
#564=CARTESIAN_POINT('',(7.937007874016E-1,0.E0,0.E0));
#565=DIRECTION('',(-1.E0,0.E0,0.E0));
#566=DIRECTION('',(0.E0,1.E0,0.E0));
#567=AXIS2_PLACEMENT_3D('',#564,#565,#566);
#568=CYLINDRICAL_SURFACE('',#567,9.212598425197E-1);
#569=ORIENTED_EDGE('',*,*,#554,.F.);
#570=ORIENTED_EDGE('',*,*,#544,.T.);
#571=ORIENTED_EDGE('',*,*,#558,.T.);
#573=ORIENTED_EDGE('',*,*,#572,.F.);
#574=EDGE_LOOP('',(#569,#570,#571,#573));
#575=FACE_OUTER_BOUND('',#574,.F.);
#576=ADVANCED_FACE('',(#575),#568,.T.);
#577=CARTESIAN_POINT('',(1.968503937008E-3,0.E0,0.E0));
#578=DIRECTION('',(-1.E0,0.E0,0.E0));
#579=DIRECTION('',(0.E0,1.E0,0.E0));
#580=AXIS2_PLACEMENT_3D('',#577,#578,#579);
#581=PLANE('',#580);
#582=ORIENTED_EDGE('',*,*,#572,.T.);
#583=ORIENTED_EDGE('',*,*,#556,.F.);
#584=EDGE_LOOP('',(#582,#583));
#585=FACE_OUTER_BOUND('',#584,.F.);
#586=ADVANCED_FACE('',(#585),#581,.T.);
#587=CLOSED_SHELL('',(#278,#293,#306,#321,#334,#349,#362,#378,#393,#406,#422,
#437,#450,#466,#481,#494,#504,#519,#532,#548,#563,#576,#586));
#588=MANIFOLD_SOLID_BREP('',#587);
#589=DIMENSIONAL_EXPONENTS(1.E0,0.E0,0.E0,0.E0,0.E0,0.E0,0.E0);
#590=(LENGTH_UNIT()NAMED_UNIT(*)SI_UNIT(.MILLI.,.METRE.));
#591=LENGTH_MEASURE_WITH_UNIT(LENGTH_MEASURE(2.54E1),#590);
#592=(CONVERSION_BASED_UNIT('INCH',#591)LENGTH_UNIT()NAMED_UNIT(#589));
#593=DIMENSIONAL_EXPONENTS(0.E0,0.E0,0.E0,0.E0,0.E0,0.E0,0.E0);
#594=(NAMED_UNIT(*)PLANE_ANGLE_UNIT()SI_UNIT($,.RADIAN.));
#595=PLANE_ANGLE_MEASURE_WITH_UNIT(PLANE_ANGLE_MEASURE(1.745329251994E-2),#594);
#596=(CONVERSION_BASED_UNIT('DEGREE',#595)NAMED_UNIT(#593)PLANE_ANGLE_UNIT());
#597=(NAMED_UNIT(*)SI_UNIT($,.STERADIAN.)SOLID_ANGLE_UNIT());
#598=UNCERTAINTY_MEASURE_WITH_UNIT(LENGTH_MEASURE(2.938336012455E-4),#592,
'closure',
'Maximum model space distance between geometric entities at asserted connectivities');
#599=(GEOMETRIC_REPRESENTATION_CONTEXT(3)GLOBAL_UNCERTAINTY_ASSIGNED_CONTEXT((
#598))GLOBAL_UNIT_ASSIGNED_CONTEXT((#592,#596,#597))REPRESENTATION_CONTEXT
('ID1','3'));
#601=APPLICATION_CONTEXT(
'CONFIGURATION CONTROLLED 3D DESIGNS OF MECHANICAL PARTS AND ASSEMBLIES');
#602=APPLICATION_PROTOCOL_DEFINITION('international standard',
'config_control_design',1994,#601);
#603=DESIGN_CONTEXT('',#601,'design');
#604=MECHANICAL_CONTEXT('',#601,'mechanical');
#605=PRODUCT('158513_SW','158513_SW','NOT SPECIFIED',(#604));
#606=PRODUCT_DEFINITION_FORMATION_WITH_SPECIFIED_SOURCE('','LAST_VERSION',#605,
.MADE.);
#610=PRODUCT_CATEGORY('part','');
#611=PRODUCT_RELATED_PRODUCT_CATEGORY('detail','',(#605));
#612=PRODUCT_CATEGORY_RELATIONSHIP('','',#610,#611);
#613=SECURITY_CLASSIFICATION_LEVEL('unclassified');
#614=SECURITY_CLASSIFICATION('','',#613);
#615=CC_DESIGN_SECURITY_CLASSIFICATION(#614,(#606));
#616=APPROVAL_STATUS('approved');
#617=APPROVAL(#616,'');
#618=CC_DESIGN_APPROVAL(#617,(#614,#606,#607));
#619=CALENDAR_DATE(111,6,10);
#620=COORDINATED_UNIVERSAL_TIME_OFFSET(5,0,.BEHIND.);
#621=LOCAL_TIME(13,6,3.6E1,#620);
#622=DATE_AND_TIME(#619,#621);
#623=APPROVAL_DATE_TIME(#622,#617);
#624=DATE_TIME_ROLE('creation_date');
#625=CC_DESIGN_DATE_AND_TIME_ASSIGNMENT(#622,#624,(#607));
#626=DATE_TIME_ROLE('classification_date');
#627=CC_DESIGN_DATE_AND_TIME_ASSIGNMENT(#622,#626,(#614));
#628=PERSON('UNSPECIFIED','UNSPECIFIED',$,$,$,$);
#629=ORGANIZATION('UNSPECIFIED','UNSPECIFIED','UNSPECIFIED');
#630=PERSON_AND_ORGANIZATION(#628,#629);
#631=APPROVAL_ROLE('approver');
#632=APPROVAL_PERSON_ORGANIZATION(#630,#617,#631);
#633=PERSON_AND_ORGANIZATION_ROLE('creator');
#634=CC_DESIGN_PERSON_AND_ORGANIZATION_ASSIGNMENT(#630,#633,(#606,#607));
#635=PERSON_AND_ORGANIZATION_ROLE('design_supplier');
#636=CC_DESIGN_PERSON_AND_ORGANIZATION_ASSIGNMENT(#630,#635,(#606));
#637=PERSON_AND_ORGANIZATION_ROLE('classification_officer');
#638=CC_DESIGN_PERSON_AND_ORGANIZATION_ASSIGNMENT(#630,#637,(#614));
#639=PERSON_AND_ORGANIZATION_ROLE('design_owner');
#640=CC_DESIGN_PERSON_AND_ORGANIZATION_ASSIGNMENT(#630,#639,(#605));
#5=CIRCLE('',#4,9.645669291339E-1);
#10=CIRCLE('',#9,9.645669291339E-1);
#15=CIRCLE('',#14,1.003937007874E0);
#24=CIRCLE('',#23,1.003937007874E0);
#37=CIRCLE('',#36,1.003937007874E0);
#46=CIRCLE('',#45,1.003937007874E0);
#51=CIRCLE('',#50,9.645669291339E-1);
#60=CIRCLE('',#59,9.645669291339E-1);
#69=CIRCLE('',#68,9.448818897638E-1);
#74=CIRCLE('',#73,9.448818897638E-1);
#79=CIRCLE('',#78,9.251968503937E-1);
#88=CIRCLE('',#87,9.251968503937E-1);
#97=CIRCLE('',#96,1.702755905512E-1);
#102=CIRCLE('',#101,1.702755905512E-1);
#107=CIRCLE('',#106,1.290354330709E-1);
#116=CIRCLE('',#115,1.290354330709E-1);
#125=CIRCLE('',#124,9.842519685039E-2);
#130=CIRCLE('',#129,9.842519685039E-2);
#135=CIRCLE('',#134,9.842519685039E-2);
#144=CIRCLE('',#143,9.842519685039E-2);
#157=CIRCLE('',#156,9.251968503937E-1);
#166=CIRCLE('',#165,9.251968503937E-1);
#171=CIRCLE('',#170,9.251968503937E-1);
#176=CIRCLE('',#175,9.251968503937E-1);
#181=CIRCLE('',#180,9.212598425197E-1);
#190=CIRCLE('',#189,9.212598425197E-1);
#199=CIRCLE('',#198,9.212598425197E-1);
#204=CIRCLE('',#203,9.212598425197E-1);
#266=EDGE_CURVE('',#224,#244,#5,.T.);
#268=EDGE_CURVE('',#224,#244,#10,.T.);
#272=EDGE_CURVE('',#207,#227,#157,.T.);
#274=EDGE_CURVE('',#207,#227,#166,.T.);
#284=EDGE_CURVE('',#222,#224,#19,.T.);
#287=EDGE_CURVE('',#242,#244,#28,.T.);
#289=EDGE_CURVE('',#222,#242,#15,.T.);
#300=EDGE_CURVE('',#222,#242,#24,.T.);
#312=EDGE_CURVE('',#220,#222,#32,.T.);
#314=EDGE_CURVE('',#220,#240,#37,.T.);
#316=EDGE_CURVE('',#240,#242,#41,.T.);
#330=EDGE_CURVE('',#220,#240,#46,.T.);
#340=EDGE_CURVE('',#219,#220,#55,.T.);
#343=EDGE_CURVE('',#239,#240,#64,.T.);
#345=EDGE_CURVE('',#219,#239,#51,.T.);
#356=EDGE_CURVE('',#219,#239,#60,.T.);
#372=EDGE_CURVE('',#216,#236,#69,.T.);
#374=EDGE_CURVE('',#216,#236,#74,.T.);
#384=EDGE_CURVE('',#215,#216,#83,.T.);
#387=EDGE_CURVE('',#235,#236,#92,.T.);
#389=EDGE_CURVE('',#215,#235,#79,.T.);
#400=EDGE_CURVE('',#215,#235,#88,.T.);
#416=EDGE_CURVE('',#212,#232,#97,.T.);
#418=EDGE_CURVE('',#212,#232,#102,.T.);
#428=EDGE_CURVE('',#211,#212,#111,.T.);
#431=EDGE_CURVE('',#231,#232,#120,.T.);
#433=EDGE_CURVE('',#211,#231,#107,.T.);
#444=EDGE_CURVE('',#211,#231,#116,.T.);
#460=EDGE_CURVE('',#248,#252,#125,.T.);
#462=EDGE_CURVE('',#248,#252,#130,.T.);
#472=EDGE_CURVE('',#247,#248,#139,.T.);
#475=EDGE_CURVE('',#251,#252,#148,.T.);
#477=EDGE_CURVE('',#247,#251,#135,.T.);
#488=EDGE_CURVE('',#247,#251,#144,.T.);
#510=EDGE_CURVE('',#207,#208,#152,.T.);
#513=EDGE_CURVE('',#227,#228,#161,.T.);
#515=EDGE_CURVE('',#208,#228,#171,.T.);
#526=EDGE_CURVE('',#208,#228,#176,.T.);
#542=EDGE_CURVE('',#255,#259,#181,.T.);
#544=EDGE_CURVE('',#255,#259,#190,.T.);
#554=EDGE_CURVE('',#255,#256,#185,.T.);
#556=EDGE_CURVE('',#256,#260,#204,.T.);
#558=EDGE_CURVE('',#259,#260,#194,.T.);
#572=EDGE_CURVE('',#256,#260,#199,.T.);
#600=ADVANCED_BREP_SHAPE_REPRESENTATION('',(#588),#599);
#607=PRODUCT_DEFINITION('design','',#606,#603);
#608=PRODUCT_DEFINITION_SHAPE('','SHAPE FOR 158513_SW.',#607);
#609=SHAPE_DEFINITION_REPRESENTATION(#608,#600);
ENDSEC;
END-ISO-10303-21;
